  0
SECTION
  2
HEADER
  9
$ACADVER
  1
AC1009
  9
$FILLMODE
 70
 0
  9
$SPLFRAME
 70
 1
  9
$EXTMIN
 10
0
 20
0
 30
0.0
  9
$EXTMAX
 10
1058.33
 20
1058.33
 30
0.0
  0
ENDSEC
  0
SECTION
  2
TABLES
  0
TABLE
  2
LAYER
 70
1
  0
LAYER
  2
0
 70
     0
 62
     7
  6
CONTINUOUS
  0
ENDTAB
  0
ENDSEC
  0
SECTION
  2
ENTITIES
  0
LINE
  8
0
 62
     0
 10
0.0950846
 20
62.3464
 30
0.0
 11
190.595
 21
62.3464
 31
0.0
  0
LINE
  8
0
 62
     0
 10
190.595
 20
62.3464
 30
0.0
 11
190.595
 21
0.434082
 31
0.0
  0
LINE
  8
0
 62
     0
 10
190.595
 20
0.434082
 30
0.0
 11
0.0950846
 21
0.434082
 31
0.0
  0
LINE
  8
0
 62
     0
 10
0.0950846
 20
0.434082
 30
0.0
 11
0.0950846
 21
62.3464
 31
0.0
  0
LINE
  8
0
 62
     0
 10
50.2447
 20
16.9595
 30
0.0
 11
64.244
 21
16.9595
 31
0.0
  0
LINE
  8
0
 62
     0
 10
64.244
 20
16.9595
 30
0.0
 11
64.244
 21
2.96003
 31
0.0
  0
LINE
  8
0
 62
     0
 10
64.244
 20
2.96003
 30
0.0
 11
50.2447
 21
2.96003
 31
0.0
  0
LINE
  8
0
 62
     0
 10
50.2447
 20
2.96003
 30
0.0
 11
50.2447
 21
16.9595
 31
0.0
  0
LINE
  8
0
 62
     0
 10
69.2947
 20
16.9595
 30
0.0
 11
83.294
 21
16.9595
 31
0.0
  0
LINE
  8
0
 62
     0
 10
83.294
 20
16.9595
 30
0.0
 11
83.294
 21
2.96003
 31
0.0
  0
LINE
  8
0
 62
     0
 10
83.294
 20
2.96003
 30
0.0
 11
69.2947
 21
2.96003
 31
0.0
  0
LINE
  8
0
 62
     0
 10
69.2947
 20
2.96003
 30
0.0
 11
69.2947
 21
16.9595
 31
0.0
  0
LINE
  8
0
 62
     0
 10
88.3447
 20
16.9595
 30
0.0
 11
102.344
 21
16.9595
 31
0.0
  0
LINE
  8
0
 62
     0
 10
102.344
 20
16.9595
 30
0.0
 11
102.344
 21
2.96003
 31
0.0
  0
LINE
  8
0
 62
     0
 10
102.344
 20
2.96003
 30
0.0
 11
88.3447
 21
2.96003
 31
0.0
  0
LINE
  8
0
 62
     0
 10
88.3447
 20
2.96003
 30
0.0
 11
88.3447
 21
16.9595
 31
0.0
  0
LINE
  8
0
 62
     0
 10
107.395
 20
16.9595
 30
0.0
 11
121.394
 21
16.9595
 31
0.0
  0
LINE
  8
0
 62
     0
 10
121.394
 20
16.9595
 30
0.0
 11
121.394
 21
2.96003
 31
0.0
  0
LINE
  8
0
 62
     0
 10
121.394
 20
2.96003
 30
0.0
 11
107.395
 21
2.96003
 31
0.0
  0
LINE
  8
0
 62
     0
 10
107.395
 20
2.96003
 30
0.0
 11
107.395
 21
16.9595
 31
0.0
  0
LINE
  8
0
 62
     0
 10
2.61965
 20
40.7719
 30
0.0
 11
16.6192
 21
40.7719
 31
0.0
  0
LINE
  8
0
 62
     0
 10
16.6192
 20
40.7719
 30
0.0
 11
16.6192
 21
26.7725
 31
0.0
  0
LINE
  8
0
 62
     0
 10
16.6192
 20
26.7725
 30
0.0
 11
2.61965
 21
26.7725
 31
0.0
  0
LINE
  8
0
 62
     0
 10
2.61965
 20
26.7725
 30
0.0
 11
2.61965
 21
40.7719
 31
0.0
  0
LINE
  8
0
 62
     0
 10
21.6697
 20
40.7719
 30
0.0
 11
35.669
 21
40.7719
 31
0.0
  0
LINE
  8
0
 62
     0
 10
35.669
 20
40.7719
 30
0.0
 11
35.669
 21
26.7725
 31
0.0
  0
LINE
  8
0
 62
     0
 10
35.669
 20
26.7725
 30
0.0
 11
21.6697
 21
26.7725
 31
0.0
  0
LINE
  8
0
 62
     0
 10
21.6697
 20
26.7725
 30
0.0
 11
21.6697
 21
40.7719
 31
0.0
  0
LINE
  8
0
 62
     0
 10
40.7197
 20
40.7719
 30
0.0
 11
54.719
 21
40.7719
 31
0.0
  0
LINE
  8
0
 62
     0
 10
54.719
 20
40.7719
 30
0.0
 11
54.719
 21
26.7725
 31
0.0
  0
LINE
  8
0
 62
     0
 10
54.719
 20
26.7725
 30
0.0
 11
40.7197
 21
26.7725
 31
0.0
  0
LINE
  8
0
 62
     0
 10
40.7197
 20
26.7725
 30
0.0
 11
40.7197
 21
40.7719
 31
0.0
  0
LINE
  8
0
 62
     0
 10
59.7697
 20
40.7719
 30
0.0
 11
73.769
 21
40.7719
 31
0.0
  0
LINE
  8
0
 62
     0
 10
73.769
 20
40.7719
 30
0.0
 11
73.769
 21
26.7725
 31
0.0
  0
LINE
  8
0
 62
     0
 10
73.769
 20
26.7725
 30
0.0
 11
59.7697
 21
26.7725
 31
0.0
  0
LINE
  8
0
 62
     0
 10
59.7697
 20
26.7725
 30
0.0
 11
59.7697
 21
40.7719
 31
0.0
  0
LINE
  8
0
 62
     0
 10
78.8197
 20
40.7719
 30
0.0
 11
92.819
 21
40.7719
 31
0.0
  0
LINE
  8
0
 62
     0
 10
92.819
 20
40.7719
 30
0.0
 11
92.819
 21
26.7725
 31
0.0
  0
LINE
  8
0
 62
     0
 10
92.819
 20
26.7725
 30
0.0
 11
78.8197
 21
26.7725
 31
0.0
  0
LINE
  8
0
 62
     0
 10
78.8197
 20
26.7725
 30
0.0
 11
78.8197
 21
40.7719
 31
0.0
  0
LINE
  8
0
 62
     0
 10
97.8683
 20
40.7719
 30
0.0
 11
111.869
 21
40.7719
 31
0.0
  0
LINE
  8
0
 62
     0
 10
111.869
 20
40.7719
 30
0.0
 11
111.869
 21
26.7725
 31
0.0
  0
LINE
  8
0
 62
     0
 10
111.869
 20
26.7725
 30
0.0
 11
97.8683
 21
26.7725
 31
0.0
  0
LINE
  8
0
 62
     0
 10
97.8683
 20
26.7725
 30
0.0
 11
97.8683
 21
40.7719
 31
0.0
  0
LINE
  8
0
 62
     0
 10
116.918
 20
40.7719
 30
0.0
 11
130.919
 21
40.7719
 31
0.0
  0
LINE
  8
0
 62
     0
 10
130.919
 20
40.7719
 30
0.0
 11
130.919
 21
26.7725
 31
0.0
  0
LINE
  8
0
 62
     0
 10
130.919
 20
26.7725
 30
0.0
 11
116.918
 21
26.7725
 31
0.0
  0
LINE
  8
0
 62
     0
 10
116.918
 20
26.7725
 30
0.0
 11
116.918
 21
40.7719
 31
0.0
  0
LINE
  8
0
 62
     0
 10
135.97
 20
40.7719
 30
0.0
 11
149.969
 21
40.7719
 31
0.0
  0
LINE
  8
0
 62
     0
 10
149.969
 20
40.7719
 30
0.0
 11
149.969
 21
26.7725
 31
0.0
  0
LINE
  8
0
 62
     0
 10
149.969
 20
26.7725
 30
0.0
 11
135.97
 21
26.7725
 31
0.0
  0
LINE
  8
0
 62
     0
 10
135.97
 20
26.7725
 30
0.0
 11
135.97
 21
40.7719
 31
0.0
  0
LINE
  8
0
 62
     0
 10
155.02
 20
40.7719
 30
0.0
 11
169.019
 21
40.7719
 31
0.0
  0
LINE
  8
0
 62
     0
 10
169.019
 20
40.7719
 30
0.0
 11
169.019
 21
26.7725
 31
0.0
  0
LINE
  8
0
 62
     0
 10
169.019
 20
26.7725
 30
0.0
 11
155.02
 21
26.7725
 31
0.0
  0
LINE
  8
0
 62
     0
 10
155.02
 20
26.7725
 30
0.0
 11
155.02
 21
40.7719
 31
0.0
  0
LINE
  8
0
 62
     0
 10
174.07
 20
40.7719
 30
0.0
 11
188.069
 21
40.7719
 31
0.0
  0
LINE
  8
0
 62
     0
 10
188.069
 20
40.7719
 30
0.0
 11
188.069
 21
26.7725
 31
0.0
  0
LINE
  8
0
 62
     0
 10
188.069
 20
26.7725
 30
0.0
 11
174.07
 21
26.7725
 31
0.0
  0
LINE
  8
0
 62
     0
 10
174.07
 20
26.7725
 30
0.0
 11
174.07
 21
40.7719
 31
0.0
  0
LINE
  8
0
 62
     0
 10
2.61965
 20
59.8219
 30
0.0
 11
16.6192
 21
59.8219
 31
0.0
  0
LINE
  8
0
 62
     0
 10
16.6192
 20
59.8219
 30
0.0
 11
16.6192
 21
45.8227
 31
0.0
  0
LINE
  8
0
 62
     0
 10
16.6192
 20
45.8227
 30
0.0
 11
2.61965
 21
45.8227
 31
0.0
  0
LINE
  8
0
 62
     0
 10
2.61965
 20
45.8227
 30
0.0
 11
2.61965
 21
59.8219
 31
0.0
  0
LINE
  8
0
 62
     0
 10
21.6697
 20
59.8219
 30
0.0
 11
35.669
 21
59.8219
 31
0.0
  0
LINE
  8
0
 62
     0
 10
35.669
 20
59.8219
 30
0.0
 11
35.669
 21
45.8227
 31
0.0
  0
LINE
  8
0
 62
     0
 10
35.669
 20
45.8227
 30
0.0
 11
21.6697
 21
45.8227
 31
0.0
  0
LINE
  8
0
 62
     0
 10
21.6697
 20
45.8227
 30
0.0
 11
21.6697
 21
59.8219
 31
0.0
  0
LINE
  8
0
 62
     0
 10
40.7197
 20
59.8219
 30
0.0
 11
54.719
 21
59.8219
 31
0.0
  0
LINE
  8
0
 62
     0
 10
54.719
 20
59.8219
 30
0.0
 11
54.719
 21
45.8227
 31
0.0
  0
LINE
  8
0
 62
     0
 10
54.719
 20
45.8227
 30
0.0
 11
40.7197
 21
45.8227
 31
0.0
  0
LINE
  8
0
 62
     0
 10
40.7197
 20
45.8227
 30
0.0
 11
40.7197
 21
59.8219
 31
0.0
  0
LINE
  8
0
 62
     0
 10
59.7697
 20
59.8219
 30
0.0
 11
73.769
 21
59.8219
 31
0.0
  0
LINE
  8
0
 62
     0
 10
73.769
 20
59.8219
 30
0.0
 11
73.769
 21
45.8227
 31
0.0
  0
LINE
  8
0
 62
     0
 10
73.769
 20
45.8227
 30
0.0
 11
59.7697
 21
45.8227
 31
0.0
  0
LINE
  8
0
 62
     0
 10
59.7697
 20
45.8227
 30
0.0
 11
59.7697
 21
59.8219
 31
0.0
  0
LINE
  8
0
 62
     0
 10
78.8197
 20
59.8219
 30
0.0
 11
92.819
 21
59.8219
 31
0.0
  0
LINE
  8
0
 62
     0
 10
92.819
 20
59.8219
 30
0.0
 11
92.819
 21
45.8227
 31
0.0
  0
LINE
  8
0
 62
     0
 10
92.819
 20
45.8227
 30
0.0
 11
78.8197
 21
45.8227
 31
0.0
  0
LINE
  8
0
 62
     0
 10
78.8197
 20
45.8227
 30
0.0
 11
78.8197
 21
59.8219
 31
0.0
  0
LINE
  8
0
 62
     0
 10
97.8683
 20
59.8219
 30
0.0
 11
111.869
 21
59.8219
 31
0.0
  0
LINE
  8
0
 62
     0
 10
111.869
 20
59.8219
 30
0.0
 11
111.869
 21
45.8227
 31
0.0
  0
LINE
  8
0
 62
     0
 10
111.869
 20
45.8227
 30
0.0
 11
97.8683
 21
45.8227
 31
0.0
  0
LINE
  8
0
 62
     0
 10
97.8683
 20
45.8227
 30
0.0
 11
97.8683
 21
59.8219
 31
0.0
  0
LINE
  8
0
 62
     0
 10
116.918
 20
59.8219
 30
0.0
 11
130.919
 21
59.8219
 31
0.0
  0
LINE
  8
0
 62
     0
 10
130.919
 20
59.8219
 30
0.0
 11
130.919
 21
45.8227
 31
0.0
  0
LINE
  8
0
 62
     0
 10
130.919
 20
45.8227
 30
0.0
 11
116.918
 21
45.8227
 31
0.0
  0
LINE
  8
0
 62
     0
 10
116.918
 20
45.8227
 30
0.0
 11
116.918
 21
59.8219
 31
0.0
  0
LINE
  8
0
 62
     0
 10
135.97
 20
59.8219
 30
0.0
 11
149.969
 21
59.8219
 31
0.0
  0
LINE
  8
0
 62
     0
 10
149.969
 20
59.8219
 30
0.0
 11
149.969
 21
45.8227
 31
0.0
  0
LINE
  8
0
 62
     0
 10
149.969
 20
45.8227
 30
0.0
 11
135.97
 21
45.8227
 31
0.0
  0
LINE
  8
0
 62
     0
 10
135.97
 20
45.8227
 30
0.0
 11
135.97
 21
59.8219
 31
0.0
  0
LINE
  8
0
 62
     0
 10
155.02
 20
59.8219
 30
0.0
 11
169.019
 21
59.8219
 31
0.0
  0
LINE
  8
0
 62
     0
 10
169.019
 20
59.8219
 30
0.0
 11
169.019
 21
45.8227
 31
0.0
  0
LINE
  8
0
 62
     0
 10
169.019
 20
45.8227
 30
0.0
 11
155.02
 21
45.8227
 31
0.0
  0
LINE
  8
0
 62
     0
 10
155.02
 20
45.8227
 30
0.0
 11
155.02
 21
59.8219
 31
0.0
  0
LINE
  8
0
 62
     0
 10
174.07
 20
59.8219
 30
0.0
 11
188.069
 21
59.8219
 31
0.0
  0
LINE
  8
0
 62
     0
 10
188.069
 20
59.8219
 30
0.0
 11
188.069
 21
45.8227
 31
0.0
  0
LINE
  8
0
 62
     0
 10
188.069
 20
45.8227
 30
0.0
 11
174.07
 21
45.8227
 31
0.0
  0
LINE
  8
0
 62
     0
 10
174.07
 20
45.8227
 30
0.0
 11
174.07
 21
59.8219
 31
0.0
  0
ENDSEC
  0
EOF
